Volí si stezku chodec nebo stezka chodce?

První tóny (Amazing grace)

27. června 2012 v 18:16 | Kajša |  Kytary, kam koukneš
Minulý článek měl dost velký ohlas, tak přidávám další článek.

Toto je písnička, kterou jsem se naučila jako první, takže s ní začneme. V češtině se jmenuje Už z hor zní zvon a zpívá ji Karel Gott. Ale nelekejte se!

e||---------------------------------------------------------------------------
B||-------0----0-----------------------0----0----3---0---3---3---0--------
G||----0----0----2--0-----------0--0----0----2----------------------2---0-
D||-0------------------2--0--0----------------------------------------------
A||---------------------------------------------------------------------------
E||---------------------------------------------------------------------------



e||---------------------------------------------
B||------------------------------0----0--------
G||---0---0----------------0--0----0----2--0--
D||-2----------2---0----0----------------0-----
A||----------------------------------------------
E||----------------------------------------------

POZNÁMKA!
Pro ty, kteří se v tabech nevyznají (naprosto s vámi soucítím): tab není notová osnova.
Znázorňuje struny (nejtenčí e nahoře a basové E dole), čísla znamenají pražec, na
kterém strunu držíte a 0 je peázdná struna. Někomu pomůže, když si přepíše tab
se strunami v opačném pořadí, ale je dobré se naučit hrát podle běžného tabu.
 

Buď první, kdo ohodnotí tento článek.

Nový komentář

Přihlásit se
  Ještě nemáte vlastní web? Můžete si jej zdarma založit na Blog.cz.
 

Aktuální články

Reklama